ISO-10303-21;
HEADER;
/* Generated by software containing ST-Developer
 * from STEP Tools, Inc. (www.steptools.com) 
 */
/* OPTION: strings as raw bytes, not using required /X/ escapes */

FILE_DESCRIPTION(
/* description */ ('Unknown'),
/* implementation_level */ '2;1');

FILE_NAME(
/* name */ 'SN 2100 T LED 230V',
/* time_stamp */ '2018-04-12T12:06:47+02:00',
/* author */ ('Unknown'),
/* organization */ ('Unknown'),
/* preprocessor_version */ 'ST-DEVELOPER v16.7',
/* originating_system */ 'DEX',
/* authorisation */ $);

FILE_SCHEMA (('AUTOMOTIVE_DESIGN {1 0 10303 214 3 1 1}'));
ENDSEC;

DATA;
#10=PROPERTY_DEFINITION_REPRESENTATION(#14,#12);
#11=PROPERTY_DEFINITION_REPRESENTATION(#15,#13);
#12=REPRESENTATION('',(#16),#489);
#13=REPRESENTATION('',(#17),#489);
#14=PROPERTY_DEFINITION('pmi validation property','',#494);
#15=PROPERTY_DEFINITION('pmi validation property','',#494);
#16=VALUE_REPRESENTATION_ITEM('number of annotations',COUNT_MEASURE(0.));
#17=VALUE_REPRESENTATION_ITEM('number of views',COUNT_MEASURE(0.));
#18=SHAPE_REPRESENTATION_RELATIONSHIP('','',#287,#19);
#19=ADVANCED_BREP_SHAPE_REPRESENTATION('',(#285),#489);
#20=SPHERICAL_SURFACE('',#313,3.99999999999999);
#21=SPHERICAL_SURFACE('',#314,3.99999999999999);
#22=SPHERICAL_SURFACE('',#317,3.99999999999999);
#23=SPHERICAL_SURFACE('',#320,3.99999999999999);
#24=CIRCLE('',#300,3.99999999999999);
#25=CIRCLE('',#301,3.99999999999999);
#26=CIRCLE('',#303,3.99999999999999);
#27=CIRCLE('',#304,3.99999999999999);
#28=CIRCLE('',#306,3.99999999999999);
#29=CIRCLE('',#307,3.99999999999999);
#30=CIRCLE('',#309,3.99999999999999);
#31=CIRCLE('',#310,3.99999999999999);
#32=CIRCLE('',#312,3.99999999999999);
#33=CIRCLE('',#315,3.99999999999999);
#34=CIRCLE('',#318,3.99999999999999);
#35=CIRCLE('',#321,3.99999999999999);
#36=CYLINDRICAL_SURFACE('',#299,3.99999999999999);
#37=CYLINDRICAL_SURFACE('',#302,3.99999999999999);
#38=CYLINDRICAL_SURFACE('',#305,3.99999999999999);
#39=CYLINDRICAL_SURFACE('',#308,3.99999999999999);
#40=CYLINDRICAL_SURFACE('',#311,3.99999999999999);
#41=CYLINDRICAL_SURFACE('',#316,3.99999999999999);
#42=CYLINDRICAL_SURFACE('',#319,3.99999999999999);
#43=CYLINDRICAL_SURFACE('',#322,3.99999999999999);
#44=ELLIPSE('',#293,4.04394619260259,3.99999999999999);
#45=ELLIPSE('',#294,4.04394619260259,3.99999999999999);
#46=ELLIPSE('',#295,4.04394619260259,3.99999999999999);
#47=ELLIPSE('',#296,4.04394619260259,3.99999999999999);
#48=ORIENTED_EDGE('',*,*,#120,.T.);
#49=ORIENTED_EDGE('',*,*,#121,.T.);
#50=ORIENTED_EDGE('',*,*,#122,.T.);
#51=ORIENTED_EDGE('',*,*,#123,.T.);
#52=ORIENTED_EDGE('',*,*,#124,.F.);
#53=ORIENTED_EDGE('',*,*,#125,.T.);
#54=ORIENTED_EDGE('',*,*,#126,.T.);
#55=ORIENTED_EDGE('',*,*,#127,.T.);
#56=ORIENTED_EDGE('',*,*,#128,.F.);
#57=ORIENTED_EDGE('',*,*,#129,.T.);
#58=ORIENTED_EDGE('',*,*,#130,.T.);
#59=ORIENTED_EDGE('',*,*,#131,.T.);
#60=ORIENTED_EDGE('',*,*,#132,.T.);
#61=ORIENTED_EDGE('',*,*,#133,.T.);
#62=ORIENTED_EDGE('',*,*,#128,.T.);
#63=ORIENTED_EDGE('',*,*,#134,.T.);
#64=ORIENTED_EDGE('',*,*,#135,.T.);
#65=ORIENTED_EDGE('',*,*,#136,.T.);
#66=ORIENTED_EDGE('',*,*,#124,.T.);
#67=ORIENTED_EDGE('',*,*,#137,.T.);
#68=ORIENTED_EDGE('',*,*,#138,.T.);
#69=ORIENTED_EDGE('',*,*,#139,.T.);
#70=ORIENTED_EDGE('',*,*,#135,.F.);
#71=ORIENTED_EDGE('',*,*,#140,.T.);
#72=ORIENTED_EDGE('',*,*,#141,.T.);
#73=ORIENTED_EDGE('',*,*,#142,.T.);
#74=ORIENTED_EDGE('',*,*,#132,.F.);
#75=ORIENTED_EDGE('',*,*,#143,.T.);
#76=ORIENTED_EDGE('',*,*,#130,.F.);
#77=ORIENTED_EDGE('',*,*,#144,.T.);
#78=ORIENTED_EDGE('',*,*,#123,.F.);
#79=ORIENTED_EDGE('',*,*,#145,.T.);
#80=ORIENTED_EDGE('',*,*,#120,.F.);
#81=ORIENTED_EDGE('',*,*,#146,.T.);
#82=ORIENTED_EDGE('',*,*,#141,.F.);
#83=ORIENTED_EDGE('',*,*,#147,.T.);
#84=ORIENTED_EDGE('',*,*,#122,.F.);
#85=ORIENTED_EDGE('',*,*,#148,.T.);
#86=ORIENTED_EDGE('',*,*,#138,.F.);
#87=ORIENTED_EDGE('',*,*,#149,.T.);
#88=ORIENTED_EDGE('',*,*,#126,.F.);
#89=ORIENTED_EDGE('',*,*,#150,.T.);
#90=ORIENTED_EDGE('',*,*,#121,.F.);
#91=ORIENTED_EDGE('',*,*,#151,.T.);
#92=ORIENTED_EDGE('',*,*,#134,.F.);
#93=ORIENTED_EDGE('',*,*,#131,.F.);
#94=ORIENTED_EDGE('',*,*,#152,.F.);
#95=ORIENTED_EDGE('',*,*,#140,.F.);
#96=ORIENTED_EDGE('',*,*,#152,.T.);
#97=ORIENTED_EDGE('',*,*,#145,.F.);
#98=ORIENTED_EDGE('',*,*,#149,.F.);
#99=ORIENTED_EDGE('',*,*,#151,.F.);
#100=ORIENTED_EDGE('',*,*,#147,.F.);
#101=ORIENTED_EDGE('',*,*,#153,.F.);
#102=ORIENTED_EDGE('',*,*,#137,.F.);
#103=ORIENTED_EDGE('',*,*,#127,.F.);
#104=ORIENTED_EDGE('',*,*,#153,.T.);
#105=ORIENTED_EDGE('',*,*,#143,.F.);
#106=ORIENTED_EDGE('',*,*,#148,.F.);
#107=ORIENTED_EDGE('',*,*,#150,.F.);
#108=ORIENTED_EDGE('',*,*,#154,.F.);
#109=ORIENTED_EDGE('',*,*,#136,.F.);
#110=ORIENTED_EDGE('',*,*,#139,.F.);
#111=ORIENTED_EDGE('',*,*,#154,.T.);
#112=ORIENTED_EDGE('',*,*,#125,.F.);
#113=ORIENTED_EDGE('',*,*,#146,.F.);
#114=ORIENTED_EDGE('',*,*,#144,.F.);
#115=ORIENTED_EDGE('',*,*,#155,.F.);
#116=ORIENTED_EDGE('',*,*,#155,.T.);
#117=ORIENTED_EDGE('',*,*,#129,.F.);
#118=ORIENTED_EDGE('',*,*,#133,.F.);
#119=ORIENTED_EDGE('',*,*,#142,.F.);
#120=EDGE_CURVE('',#156,#157,#176,.F.);
#121=EDGE_CURVE('',#157,#158,#177,.T.);
#122=EDGE_CURVE('',#158,#159,#178,.T.);
#123=EDGE_CURVE('',#159,#156,#179,.T.);
#124=EDGE_CURVE('',#160,#161,#180,.T.);
#125=EDGE_CURVE('',#160,#162,#181,.T.);
#126=EDGE_CURVE('',#162,#163,#182,.F.);
#127=EDGE_CURVE('',#163,#161,#183,.F.);
#128=EDGE_CURVE('',#164,#165,#184,.T.);
#129=EDGE_CURVE('',#164,#166,#185,.F.);
#130=EDGE_CURVE('',#166,#167,#186,.F.);
#131=EDGE_CURVE('',#167,#165,#187,.F.);
#132=EDGE_CURVE('',#168,#169,#188,.T.);
#133=EDGE_CURVE('',#169,#164,#44,.T.);
#134=EDGE_CURVE('',#165,#170,#45,.T.);
#135=EDGE_CURVE('',#170,#171,#189,.T.);
#136=EDGE_CURVE('',#171,#160,#46,.T.);
#137=EDGE_CURVE('',#161,#168,#47,.T.);
#138=EDGE_CURVE('',#172,#173,#190,.F.);
#139=EDGE_CURVE('',#173,#171,#191,.F.);
#140=EDGE_CURVE('',#170,#172,#192,.T.);
#141=EDGE_CURVE('',#174,#175,#193,.T.);
#142=EDGE_CURVE('',#175,#169,#194,.T.);
#143=EDGE_CURVE('',#168,#174,#195,.T.);
#144=EDGE_CURVE('',#166,#156,#24,.F.);
#145=EDGE_CURVE('',#159,#167,#25,.T.);
#146=EDGE_CURVE('',#156,#175,#26,.T.);
#147=EDGE_CURVE('',#174,#157,#27,.F.);
#148=EDGE_CURVE('',#158,#173,#28,.T.);
#149=EDGE_CURVE('',#172,#159,#29,.F.);
#150=EDGE_CURVE('',#162,#158,#30,.F.);
#151=EDGE_CURVE('',#157,#163,#31,.T.);
#152=EDGE_CURVE('',#172,#167,#32,.T.);
#153=EDGE_CURVE('',#163,#174,#33,.T.);
#154=EDGE_CURVE('',#173,#162,#34,.T.);
#155=EDGE_CURVE('',#175,#166,#35,.T.);
#156=VERTEX_POINT('',#416);
#157=VERTEX_POINT('',#417);
#158=VERTEX_POINT('',#419);
#159=VERTEX_POINT('',#421);
#160=VERTEX_POINT('',#425);
#161=VERTEX_POINT('',#426);
#162=VERTEX_POINT('',#428);
#163=VERTEX_POINT('',#430);
#164=VERTEX_POINT('',#434);
#165=VERTEX_POINT('',#435);
#166=VERTEX_POINT('',#437);
#167=VERTEX_POINT('',#439);
#168=VERTEX_POINT('',#443);
#169=VERTEX_POINT('',#444);
#170=VERTEX_POINT('',#447);
#171=VERTEX_POINT('',#449);
#172=VERTEX_POINT('',#454);
#173=VERTEX_POINT('',#455);
#174=VERTEX_POINT('',#460);
#175=VERTEX_POINT('',#461);
#176=LINE('',#415,#196);
#177=LINE('',#418,#197);
#178=LINE('',#420,#198);
#179=LINE('',#422,#199);
#180=LINE('',#424,#200);
#181=LINE('',#427,#201);
#182=LINE('',#429,#202);
#183=LINE('',#431,#203);
#184=LINE('',#433,#204);
#185=LINE('',#436,#205);
#186=LINE('',#438,#206);
#187=LINE('',#440,#207);
#188=LINE('',#442,#208);
#189=LINE('',#448,#209);
#190=LINE('',#453,#210);
#191=LINE('',#456,#211);
#192=LINE('',#457,#212);
#193=LINE('',#459,#213);
#194=LINE('',#462,#214);
#195=LINE('',#463,#215);
#196=VECTOR('',#327,1000.);
#197=VECTOR('',#328,1000.);
#198=VECTOR('',#329,1000.);
#199=VECTOR('',#330,1000.);
#200=VECTOR('',#333,1000.);
#201=VECTOR('',#334,1000.);
#202=VECTOR('',#335,1000.);
#203=VECTOR('',#336,1000.);
#204=VECTOR('',#339,1000.);
#205=VECTOR('',#340,1000.);
#206=VECTOR('',#341,1000.);
#207=VECTOR('',#342,1000.);
#208=VECTOR('',#345,1000.);
#209=VECTOR('',#350,1000.);
#210=VECTOR('',#357,1000.);
#211=VECTOR('',#358,1000.);
#212=VECTOR('',#359,1000.);
#213=VECTOR('',#362,1000.);
#214=VECTOR('',#363,1000.);
#215=VECTOR('',#364,1000.);
#216=EDGE_LOOP('',(#48,#49,#50,#51));
#217=EDGE_LOOP('',(#52,#53,#54,#55));
#218=EDGE_LOOP('',(#56,#57,#58,#59));
#219=EDGE_LOOP('',(#60,#61,#62,#63,#64,#65,#66,#67));
#220=EDGE_LOOP('',(#68,#69,#70,#71));
#221=EDGE_LOOP('',(#72,#73,#74,#75));
#222=EDGE_LOOP('',(#76,#77,#78,#79));
#223=EDGE_LOOP('',(#80,#81,#82,#83));
#224=EDGE_LOOP('',(#84,#85,#86,#87));
#225=EDGE_LOOP('',(#88,#89,#90,#91));
#226=EDGE_LOOP('',(#92,#93,#94,#95));
#227=EDGE_LOOP('',(#96,#97,#98));
#228=EDGE_LOOP('',(#99,#100,#101));
#229=EDGE_LOOP('',(#102,#103,#104,#105));
#230=EDGE_LOOP('',(#106,#107,#108));
#231=EDGE_LOOP('',(#109,#110,#111,#112));
#232=EDGE_LOOP('',(#113,#114,#115));
#233=EDGE_LOOP('',(#116,#117,#118,#119));
#234=FACE_BOUND('',#216,.T.);
#235=FACE_BOUND('',#217,.T.);
#236=FACE_BOUND('',#218,.T.);
#237=FACE_BOUND('',#219,.T.);
#238=FACE_BOUND('',#220,.T.);
#239=FACE_BOUND('',#221,.T.);
#240=FACE_BOUND('',#222,.T.);
#241=FACE_BOUND('',#223,.T.);
#242=FACE_BOUND('',#224,.T.);
#243=FACE_BOUND('',#225,.T.);
#244=FACE_BOUND('',#226,.T.);
#245=FACE_BOUND('',#227,.T.);
#246=FACE_BOUND('',#228,.T.);
#247=FACE_BOUND('',#229,.T.);
#248=FACE_BOUND('',#230,.T.);
#249=FACE_BOUND('',#231,.T.);
#250=FACE_BOUND('',#232,.T.);
#251=FACE_BOUND('',#233,.T.);
#252=PLANE('',#289);
#253=PLANE('',#290);
#254=PLANE('',#291);
#255=PLANE('',#292);
#256=PLANE('',#297);
#257=PLANE('',#298);
#258=ADVANCED_FACE('',(#234),#252,.F.);
#259=ADVANCED_FACE('',(#235),#253,.F.);
#260=ADVANCED_FACE('',(#236),#254,.F.);
#261=ADVANCED_FACE('',(#237),#255,.T.);
#262=ADVANCED_FACE('',(#238),#256,.F.);
#263=ADVANCED_FACE('',(#239),#257,.T.);
#264=ADVANCED_FACE('',(#240),#36,.T.);
#265=ADVANCED_FACE('',(#241),#37,.T.);
#266=ADVANCED_FACE('',(#242),#38,.T.);
#267=ADVANCED_FACE('',(#243),#39,.T.);
#268=ADVANCED_FACE('',(#244),#40,.T.);
#269=ADVANCED_FACE('',(#245),#20,.T.);
#270=ADVANCED_FACE('',(#246),#21,.T.);
#271=ADVANCED_FACE('',(#247),#41,.T.);
#272=ADVANCED_FACE('',(#248),#22,.T.);
#273=ADVANCED_FACE('',(#249),#42,.T.);
#274=ADVANCED_FACE('',(#250),#23,.T.);
#275=ADVANCED_FACE('',(#251),#43,.T.);
#276=CLOSED_SHELL('',(#258,#259,#260,#261,#262,#263,#264,#265,#266,#267,
#268,#269,#270,#271,#272,#273,#274,#275));
#277=STYLED_ITEM('',(#278),#285);
#278=PRESENTATION_STYLE_ASSIGNMENT((#279));
#279=SURFACE_STYLE_USAGE(.BOTH.,#280);
#280=SURFACE_SIDE_STYLE('',(#281));
#281=SURFACE_STYLE_FILL_AREA(#282);
#282=FILL_AREA_STYLE('',(#283));
#283=FILL_AREA_STYLE_COLOUR('',#284);
#284=COLOUR_RGB('',0.506983280181885,0.531564235687256,0.550000011920929);
#285=MANIFOLD_SOLID_BREP('',#276);
#286=SHAPE_DEFINITION_REPRESENTATION(#494,#287);
#287=SHAPE_REPRESENTATION('SN 2100 T LED 230V',(#288),#489);
#288=AXIS2_PLACEMENT_3D('',#413,#323,#324);
#289=AXIS2_PLACEMENT_3D('',#414,#325,#326);
#290=AXIS2_PLACEMENT_3D('',#423,#331,#332);
#291=AXIS2_PLACEMENT_3D('',#432,#337,#338);
#292=AXIS2_PLACEMENT_3D('',#441,#343,#344);
#293=AXIS2_PLACEMENT_3D('',#445,#346,#347);
#294=AXIS2_PLACEMENT_3D('',#446,#348,#349);
#295=AXIS2_PLACEMENT_3D('',#450,#351,#352);
#296=AXIS2_PLACEMENT_3D('',#451,#353,#354);
#297=AXIS2_PLACEMENT_3D('',#452,#355,#356);
#298=AXIS2_PLACEMENT_3D('',#458,#360,#361);
#299=AXIS2_PLACEMENT_3D('',#464,#365,#366);
#300=AXIS2_PLACEMENT_3D('',#465,#367,#368);
#301=AXIS2_PLACEMENT_3D('',#466,#369,#370);
#302=AXIS2_PLACEMENT_3D('',#467,#371,#372);
#303=AXIS2_PLACEMENT_3D('',#468,#373,#374);
#304=AXIS2_PLACEMENT_3D('',#469,#375,#376);
#305=AXIS2_PLACEMENT_3D('',#470,#377,#378);
#306=AXIS2_PLACEMENT_3D('',#471,#379,#380);
#307=AXIS2_PLACEMENT_3D('',#472,#381,#382);
#308=AXIS2_PLACEMENT_3D('',#473,#383,#384);
#309=AXIS2_PLACEMENT_3D('',#474,#385,#386);
#310=AXIS2_PLACEMENT_3D('',#475,#387,#388);
#311=AXIS2_PLACEMENT_3D('',#476,#389,#390);
#312=AXIS2_PLACEMENT_3D('',#477,#391,#392);
#313=AXIS2_PLACEMENT_3D('',#478,#393,#394);
#314=AXIS2_PLACEMENT_3D('',#479,#395,#396);
#315=AXIS2_PLACEMENT_3D('',#480,#397,#398);
#316=AXIS2_PLACEMENT_3D('',#481,#399,#400);
#317=AXIS2_PLACEMENT_3D('',#482,#401,#402);
#318=AXIS2_PLACEMENT_3D('',#483,#403,#404);
#319=AXIS2_PLACEMENT_3D('',#484,#405,#406);
#320=AXIS2_PLACEMENT_3D('',#485,#407,#408);
#321=AXIS2_PLACEMENT_3D('',#486,#409,#410);
#322=AXIS2_PLACEMENT_3D('',#487,#411,#412);
#323=DIRECTION('',(0.,0.,1.));
#324=DIRECTION('',(1.,0.,0.));
#325=DIRECTION('',(0.,0.,1.));
#326=DIRECTION('',(1.,0.,0.));
#327=DIRECTION('',(-1.,8.45996279337406E-17,0.));
#328=DIRECTION('',(0.,-1.,0.));
#329=DIRECTION('',(-1.,0.,0.));
#330=DIRECTION('',(0.,1.,0.));
#331=DIRECTION('',(-0.994521895368273,0.,0.104528463267653));
#332=DIRECTION('',(0.104528463267653,0.,0.994521895368273));
#333=DIRECTION('',(0.,1.,0.));
#334=DIRECTION('',(-0.103962051184498,0.103962051184498,-0.989132844377854));
#335=DIRECTION('',(0.,-1.,0.));
#336=DIRECTION('',(-0.103962051184498,-0.103962051184498,-0.989132844377854));
#337=DIRECTION('',(0.994521895368273,0.,0.104528463267654));
#338=DIRECTION('',(0.104528463267654,0.,-0.994521895368273));
#339=DIRECTION('',(0.,-1.,0.));
#340=DIRECTION('',(-0.103962051184498,0.103962051184498,0.989132844377854));
#341=DIRECTION('',(0.,1.,0.));
#342=DIRECTION('',(0.103962051184498,0.103962051184498,-0.989132844377854));
#343=DIRECTION('',(0.,0.,1.));
#344=DIRECTION('',(1.,0.,0.));
#345=DIRECTION('',(-1.,0.,0.));
#346=DIRECTION('',(0.,0.,1.));
#347=DIRECTION('',(0.707106781186549,-0.707106781186546,0.));
#348=DIRECTION('',(0.,0.,1.));
#349=DIRECTION('',(0.707106781186549,0.707106781186546,0.));
#350=DIRECTION('',(1.,0.,0.));
#351=DIRECTION('',(0.,0.,1.));
#352=DIRECTION('',(-0.707106781186548,0.707106781186547,0.));
#353=DIRECTION('',(0.,0.,1.));
#354=DIRECTION('',(0.707106781186548,0.707106781186547,0.));
#355=DIRECTION('',(0.,0.994521895368273,0.104528463267653));
#356=DIRECTION('',(0.,-0.104528463267653,0.994521895368274));
#357=DIRECTION('',(-1.,0.,0.));
#358=DIRECTION('',(-0.103962051184498,0.103962051184498,-0.989132844377854));
#359=DIRECTION('',(0.103962051184498,0.103962051184498,-0.989132844377854));
#360=DIRECTION('',(8.41361823201144E-17,0.994521895368273,-0.104528463267653));
#361=DIRECTION('',(0.,0.104528463267653,0.994521895368273));
#362=DIRECTION('',(-1.,8.45996279337406E-17,0.));
#363=DIRECTION('',(-0.103962051184498,0.103962051184498,0.989132844377854));
#364=DIRECTION('',(-0.103962051184498,-0.103962051184498,-0.989132844377854));
#365=DIRECTION('',(0.,1.,0.));
#366=DIRECTION('',(0.,0.,1.));
#367=DIRECTION('',(0.,1.,0.));
#368=DIRECTION('',(0.,0.,1.));
#369=DIRECTION('',(0.,1.,0.));
#370=DIRECTION('',(0.,0.,1.));
#371=DIRECTION('',(1.,-8.45996279337406E-17,0.));
#372=DIRECTION('',(8.45996279337406E-17,1.,0.));
#373=DIRECTION('',(1.,-8.45996279337406E-17,0.));
#374=DIRECTION('',(8.45996279337406E-17,1.,0.));
#375=DIRECTION('',(1.,-8.45996279337406E-17,0.));
#376=DIRECTION('',(8.45996279337406E-17,1.,0.));
#377=DIRECTION('',(-1.,0.,0.));
#378=DIRECTION('',(0.,0.,1.));
#379=DIRECTION('',(-1.,0.,0.));
#380=DIRECTION('',(0.,0.,1.));
#381=DIRECTION('',(-1.,0.,0.));
#382=DIRECTION('',(0.,0.,1.));
#383=DIRECTION('',(0.,-1.,0.));
#384=DIRECTION('',(0.,0.,-1.));
#385=DIRECTION('',(0.,-1.,0.));
#386=DIRECTION('',(0.,0.,-1.));
#387=DIRECTION('',(0.,-1.,0.));
#388=DIRECTION('',(0.,0.,-1.));
#389=DIRECTION('',(0.103962051184498,0.103962051184498,-0.989132844377854));
#390=DIRECTION('',(-0.994521895368273,0.,-0.104528463267654));
#391=DIRECTION('',(0.103962051184498,0.103962051184497,-0.989132844377854));
#392=DIRECTION('',(-0.994521895368273,0.,-0.104528463267654));
#393=DIRECTION('',(0.,0.,1.));
#394=DIRECTION('',(1.,0.,0.));
#395=DIRECTION('',(0.,0.,1.));
#396=DIRECTION('',(1.,0.,0.));
#397=DIRECTION('',(0.103962051184497,0.103962051184498,0.989132844377854));
#398=DIRECTION('',(0.,-0.994521895368273,0.104528463267653));
#399=DIRECTION('',(0.103962051184498,0.103962051184498,0.989132844377854));
#400=DIRECTION('',(0.994521895368273,0.,-0.104528463267653));
#401=DIRECTION('',(0.,0.,1.));
#402=DIRECTION('',(1.,0.,0.));
#403=DIRECTION('',(0.103962051184495,-0.103962051184497,0.989132844377854));
#404=DIRECTION('',(0.,-0.994521895368273,-0.104528463267653));
#405=DIRECTION('',(-0.103962051184498,0.103962051184498,-0.989132844377854));
#406=DIRECTION('',(-0.994521895368273,0.,0.104528463267653));
#407=DIRECTION('',(0.,0.,1.));
#408=DIRECTION('',(1.,0.,0.));
#409=DIRECTION('',(-0.103962051184499,0.103962051184496,0.989132844377854));
#410=DIRECTION('',(0.994521895368273,0.,0.104528463267655));
#411=DIRECTION('',(0.103962051184498,-0.103962051184498,-0.989132844377854));
#412=DIRECTION('',(-0.994521895368273,0.,-0.104528463267654));
#413=CARTESIAN_POINT('',(0.,0.,0.));
#414=CARTESIAN_POINT('',(0.,0.,-65.));
#415=CARTESIAN_POINT('',(93.1682247077311,59.5666085305397,-65.));
#416=CARTESIAN_POINT('',(-89.5666085305397,59.5666085305397,-65.));
#417=CARTESIAN_POINT('',(89.5666085305397,59.5666085305397,-65.));
#418=CARTESIAN_POINT('',(89.5666085305397,0.,-65.));
#419=CARTESIAN_POINT('',(89.5666085305397,-59.5666085305397,-65.));
#420=CARTESIAN_POINT('',(0.,-59.5666085305397,-65.));
#421=CARTESIAN_POINT('',(-89.5666085305397,-59.5666085305397,-65.));
#422=CARTESIAN_POINT('',(-89.5666085305397,0.,-65.));
#423=CARTESIAN_POINT('',(100.,216.768416938241,0.));
#424=CARTESIAN_POINT('',(100.,-70.,0.));
#425=CARTESIAN_POINT('',(100.,-66.0219124185268,0.));
#426=CARTESIAN_POINT('',(100.,66.0219124185269,0.));
#427=CARTESIAN_POINT('',(96.9435715544985,-62.9654839730254,-29.0799741587544));
#428=CARTESIAN_POINT('',(93.5446961120128,-59.5666085305397,-61.4181138530706));
#429=CARTESIAN_POINT('',(93.5446961120128,216.768416938241,-61.4181138530706));
#430=CARTESIAN_POINT('',(93.5446961120128,59.5666085305397,-61.4181138530706));
#431=CARTESIAN_POINT('',(100.042995600558,66.064908019085,0.409075813637728));
#432=CARTESIAN_POINT('',(-100.,-239.296524553774,0.));
#433=CARTESIAN_POINT('',(-100.,70.,0.));
#434=CARTESIAN_POINT('',(-100.,66.0219124185269,0.));
#435=CARTESIAN_POINT('',(-100.,-66.0219124185269,0.));
#436=CARTESIAN_POINT('',(-93.5876917125708,59.6096041310978,-61.0090380394329));
#437=CARTESIAN_POINT('',(-93.5446961120127,59.5666085305397,-61.4181138530706));
#438=CARTESIAN_POINT('',(-93.5446961120127,-239.296524553774,-61.4181138530706));
#439=CARTESIAN_POINT('',(-93.5446961120127,-59.5666085305397,-61.4181138530706));
#440=CARTESIAN_POINT('',(-101.872770736602,-67.894683155129,17.8182233272349));
#441=CARTESIAN_POINT('',(0.,0.,0.));
#442=CARTESIAN_POINT('',(100.,70.,0.));
#443=CARTESIAN_POINT('',(96.0219124185269,70.,0.));
#444=CARTESIAN_POINT('',(-96.0219124185269,70.,0.));
#445=CARTESIAN_POINT('',(-95.9779668817459,65.977966881746,0.));
#446=CARTESIAN_POINT('',(-95.9779668817459,-65.9779668817459,0.));
#447=CARTESIAN_POINT('',(-96.0219124185269,-70.,0.));
#448=CARTESIAN_POINT('',(-100.,-70.,0.));
#449=CARTESIAN_POINT('',(96.0219124185269,-70.,0.));
#450=CARTESIAN_POINT('',(95.9779668817459,-65.9779668817459,0.));
#451=CARTESIAN_POINT('',(95.977966881746,65.977966881746,0.));
#452=CARTESIAN_POINT('',(216.928889988513,-70.,0.));
#453=CARTESIAN_POINT('',(216.928889988513,-63.5446961120128,-61.4181138530706));
#454=CARTESIAN_POINT('',(-89.5666085305396,-63.5446961120128,-61.4181138530706));
#455=CARTESIAN_POINT('',(89.5666085305397,-63.5446961120128,-61.4181138530706));
#456=CARTESIAN_POINT('',(97.3286881005139,-71.306775681987,12.4331400983396));
#457=CARTESIAN_POINT('',(-92.6395063203584,-66.6175939018315,-32.1814443501599));
#458=CARTESIAN_POINT('',(103.574629413467,70.,8.45444578935918E-15));
#459=CARTESIAN_POINT('',(-93.168224707731,63.5446961120128,-61.4181138530706));
#460=CARTESIAN_POINT('',(89.5666085305397,63.5446961120128,-61.4181138530706));
#461=CARTESIAN_POINT('',(-89.5666085305397,63.5446961120128,-61.4181138530706));
#462=CARTESIAN_POINT('',(-96.064908019085,70.0429956005581,0.409075813637731));
#463=CARTESIAN_POINT('',(89.6096041310978,63.5876917125709,-61.0090380394329));
#464=CARTESIAN_POINT('',(-89.5666085305397,0.,-61.));
#465=CARTESIAN_POINT('',(-89.5666085305397,59.5666085305397,-61.));
#466=CARTESIAN_POINT('',(-89.5666085305397,-59.5666085305397,-61.));
#467=CARTESIAN_POINT('',(103.574629413467,59.5666085305397,-61.));
#468=CARTESIAN_POINT('',(-89.5666085305396,59.5666085305397,-61.));
#469=CARTESIAN_POINT('',(89.5666085305397,59.5666085305397,-61.));
#470=CARTESIAN_POINT('',(0.,-59.5666085305397,-61.));
#471=CARTESIAN_POINT('',(89.5666085305397,-59.5666085305397,-61.));
#472=CARTESIAN_POINT('',(-89.5666085305397,-59.5666085305397,-61.));
#473=CARTESIAN_POINT('',(89.5666085305397,0.,-61.));
#474=CARTESIAN_POINT('',(89.5666085305397,-59.5666085305397,-61.));
#475=CARTESIAN_POINT('',(89.5666085305397,59.5666085305397,-61.));
#476=CARTESIAN_POINT('',(-92.6395063203584,-62.6395063203584,-31.7633304970893));
#477=CARTESIAN_POINT('',(-89.5666085305396,-59.5666085305397,-61.));
#478=CARTESIAN_POINT('',(-89.5666085305397,-59.5666085305397,-61.));
#479=CARTESIAN_POINT('',(89.5666085305397,59.5666085305397,-61.));
#480=CARTESIAN_POINT('',(89.5666085305397,59.5666085305397,-61.));
#481=CARTESIAN_POINT('',(96.1035430001549,66.1035430001549,1.19477695728927));
#482=CARTESIAN_POINT('',(89.5666085305397,-59.5666085305397,-61.));
#483=CARTESIAN_POINT('',(89.5666085305397,-59.5666085305397,-61.));
#484=CARTESIAN_POINT('',(92.9654839730254,-62.9654839730253,-28.6618603056838));
#485=CARTESIAN_POINT('',(-89.5666085305397,59.5666085305397,-61.));
#486=CARTESIAN_POINT('',(-89.5666085305397,59.5666085305397,-61.));
#487=CARTESIAN_POINT('',(-93.8646514207174,63.8646514207175,-20.1068535029683));
#488=MECHANICAL_DESIGN_GEOMETRIC_PRESENTATION_REPRESENTATION('',(#277),
#489);
#489=(
GEOMETRIC_REPRESENTATION_CONTEXT(3)
GLOBAL_UNCERTAINTY_ASSIGNED_CONTEXT((#490))
GLOBAL_UNIT_ASSIGNED_CONTEXT((#493,#492,#491))
REPRESENTATION_CONTEXT('SN 2100 T LED 230V','TOP_LEVEL_ASSEMBLY_PART')
);
#490=UNCERTAINTY_MEASURE_WITH_UNIT(LENGTH_MEASURE(0.005),#493,
'DISTANCE_ACCURACY_VALUE','Maximum Tolerance applied to model');
#491=(
NAMED_UNIT(*)
SI_UNIT($,.STERADIAN.)
SOLID_ANGLE_UNIT()
);
#492=(
NAMED_UNIT(*)
PLANE_ANGLE_UNIT()
SI_UNIT($,.RADIAN.)
);
#493=(
LENGTH_UNIT()
NAMED_UNIT(*)
SI_UNIT(.MILLI.,.METRE.)
);
#494=PRODUCT_DEFINITION_SHAPE('','',#495);
#495=PRODUCT_DEFINITION('','',#497,#496);
#496=PRODUCT_DEFINITION_CONTEXT('',#503,'design');
#497=PRODUCT_DEFINITION_FORMATION_WITH_SPECIFIED_SOURCE('','',#499,
 .NOT_KNOWN.);
#498=PRODUCT_RELATED_PRODUCT_CATEGORY('','',(#499));
#499=PRODUCT('SN 2100 T LED 230V','SN 2100 T LED 230V',
'SN 2100 T LED 230V',(#501));
#500=PRODUCT_CATEGORY('','');
#501=PRODUCT_CONTEXT('',#503,'mechanical');
#502=APPLICATION_PROTOCOL_DEFINITION('international standard',
'automotive_design',2010,#503);
#503=APPLICATION_CONTEXT(
'core data for automotive mechanical design processes');
ENDSEC;
END-ISO-10303-21;
